Pronostics Ligue 1
Classement individuel • 9e journée
DateÀ domicileA l'extérieurRésultatRègle des points
Annulé Olympique de Marseille RC Lens---3 - 7 - 10
31/10/20 17:00 Stade Rennais FC Stade Brestois 292-13 - 8 - 10
31/10/20 21:00 FC Nantes Paris Saint-Germain0-310 - 10 - 3
01/11/20 13:00 AS St. Etienne Montpellier Hérault SC---4 - 5 - 7
01/11/20 15:00 Angers SCO OGC Nice---5 - 5 - 5
01/11/20 15:00 Dijon FCO FC Lorient---5 - 5 - 5
01/11/20 15:00 Nîmes Olympique FC Metz---4 - 5 - 6
01/11/20 15:00 Stade de Reims Racing Club Strasbourg---4 - 6 - 6
01/11/20 17:00 AS Monaco Girondins de Bordeaux---4 - 7 - 9
01/11/20 21:00 LOSC Lille Olympique Lyonnais---5 - 5 - 6
Pos.
+/- Nom
OM
RCL
---
SRFC
SB29
2-1
FCN
PSG
0-3
ASSE
MHSC
---
SCOA
OGCN
---
DFCO
FCL
---
NO
FCM
---
SDR
RCS
---
ASM
FCGB
---
LOSC
OL
---
PBV
T
1
hervecaen
---0-10-23---------------------301,00218
2
1
Benaglio
---2-151-23---------------------80218
2
callou07
---1-041-23---------------------70218
4
1
Seb81
---2-151-23---------------------80216
5
2
Heinz2
---1-10-23---------------------30213
6
1
Fabinos78
---0-35---------------------50210
6
2
Oli74
---2-031-33---------------------60210
6
SoiffardDavid
---1-21-23---------------------30210
9
1
MattDLC
---1-042-43---------------------70208
10
4
Naim
---2-150-35---------------------1000,10207
11
1
Anthony17
---2-031-23---------------------60207
12
3
Fruehlingsrolle
1-31-23---30206
13
1
ocin85
---2-030-23---------------------60205
14
2
Else
---2-150-23---------------------80204
14
3
Pat2016
---1-040-35---------------------90204
16
4
Aurel47
---0-01-23---------------------30202
16
5
Ennis29
---2-150-23---------------------80202
18
1
cobra67
---3-130-43---------------------60201
18
1
Tintinos
---3-131-33---------------------60201
20
6
Thunder21
1-21-2330200
21
1
Vince
---1-10-35---------------------501,50199
22
1
Blagman972
3-131-23---------------------60199
23
4
Elcommandante
---2-151-33---------------------800,50198
24
Eray
---1-040-23---------------------70198
24
4
Gwele
---2-151-33---------------------80198
26
5
Nojid-52
---2-22-33---------------------30197
27
1
Babondieu
---2-031-33---------------------60196
27
3
stock
---2-151-1---------------------50196
29
3
AndreSVW
---2-151-33---------------------80194
29
5
Damien
---2-21-33---------------------30194
29
5
krakorus13
---1-040-35---------------------90194
29
1
WlodiVfl1900
---1-10-35---------------------50194
33
6
Cyril9
---2-150-35---------------------1000,10193
34
dédécaouette
---2-030-35---------------------80193
35
3
LoupWolf5
2-031-33---------------------60192
35
1
Nouaim
---2-151-33---------------------80192
35
1
Yabru971
2-151-33---------------------80192
38
1
Grisno21
2-151-33---------------------80191
39
4
bri
---2-151-23---------------------801,00190
40
1
Hanabibi
1-040-2370190
73
19
Marco
---2-150-35---------------------1000,10181
119
15
Benbung
---2-150-35---------------------1000,10173
137
18
YoaGui1911
2-150-35---------------------1000,10169